ISO-10303-21;
HEADER;
FILE_DESCRIPTION (( 'STEP AP203' ),
    '1' );
FILE_NAME ('BK7-LPDBSP-25.4-638.STEP',
    '2020-12-22T02:19:05',
    ( '' ),
    ( '' ),
    'SwSTEP 2.0',
    'SolidWorks 2020',
    '' );
FILE_SCHEMA (( 'CONFIG_CONTROL_DESIGN' ));
ENDSEC;

DATA;
#1 = CLOSED_SHELL ( 'NONE', ( #6, #139, #118, #79 ) ) ;
#2 = PERSON_AND_ORGANIZATION ( #93, #132 ) ;
#3 = PERSON_AND_ORGANIZATION_ROLE ( 'design_owner' ) ;
#4 = APPROVAL_DATE_TIME ( #152, #70 ) ;
#5 = CC_DESIGN_PERSON_AND_ORGANIZATION_ASSIGNMENT ( #101, #110, ( #33 ) ) ;
#6 = ADVANCED_FACE ( 'NONE', ( #166 ), #47, .T. ) ;
#7 = EDGE_CURVE ( 'NONE', #145, #9, #165, .T. ) ;
#8 = AXIS2_PLACEMENT_3D ( 'NONE', #44, #74, #96 ) ;
#9 = VERTEX_POINT ( 'NONE', #49 ) ;
#10 = COORDINATED_UNIVERSAL_TIME_OFFSET ( 8, 0, .AHEAD. ) ;
#11 = VERTEX_POINT ( 'NONE', #82 ) ;
#12 = DIRECTION ( 'NONE',  ( 0.000000000000000000, 0.000000000000000000, 1.000000000000000000 ) ) ;
#13 = ORIENTED_EDGE ( 'NONE', *, *, #26, .T. ) ;
#14 = CARTESIAN_POINT ( 'NONE',  ( -1.187907395172932594E-15, 1.555301434917138433E-15, -12.69999999999999929 ) ) ;
#15 = LOCAL_TIME ( 10, 19, 5.000000000000000000, #39 ) ;
#16 = AXIS2_PLACEMENT_3D ( 'NONE', #133, #161, #131 ) ;
#17 = APPROVAL_ROLE ( '' ) ;
#18 = APPROVAL_STATUS ( 'not_yet_approved' ) ;
#19 = AXIS2_PLACEMENT_3D ( 'NONE', #114, #22, #140 ) ;
#20 = EDGE_CURVE ( 'NONE', #9, #145, #97, .T. ) ;
#21 = APPROVAL_PERSON_ORGANIZATION ( #112, #88, #124 ) ;
#22 = DIRECTION ( 'NONE',  ( -1.000000000000000000, -0.000000000000000000, -0.000000000000000000 ) ) ;
#23 = ORIENTED_EDGE ( 'NONE', *, *, #170, .T. ) ;
#24 = AXIS2_PLACEMENT_3D ( 'NONE', #169, #106, #12 ) ;
#25 = PERSON_AND_ORGANIZATION_ROLE ( 'classification_officer' ) ;
#26 = EDGE_CURVE ( 'NONE', #143, #145, #172, .T. ) ;
#27 = CARTESIAN_POINT ( 'NONE',  ( 3.499999999999998224, 1.555301434917138433E-15, -12.69999999999999929 ) ) ;
#28 = CC_DESIGN_APPROVAL ( #88, ( #72 ) ) ;
#29 = APPLICATION_PROTOCOL_DEFINITION ( 'international standard', 'config_control_design', 1994, #56 ) ;
#30 = CARTESIAN_POINT ( 'NONE',  ( 3.499999999999998224, 0.000000000000000000, 0.000000000000000000 ) ) ;
#31 = DIRECTION ( 'NONE',  ( -1.000000000000000000, -0.000000000000000000, -0.000000000000000000 ) ) ;
#32 = PERSON_AND_ORGANIZATION ( #93, #132 ) ;
#33 = PRODUCT_DEFINITION ( 'UNKNOWN', '', #81, #126 ) ;
#34 = UNCERTAINTY_MEASURE_WITH_UNIT (LENGTH_MEASURE( 1.000000000000000082E-05 ), #75, 'distance_accuracy_value', 'NONE');
#35 = APPLICATION_PROTOCOL_DEFINITION ( 'international standard', 'config_control_design', 1994, #69 ) ;
#36 = PERSON_AND_ORGANIZATION ( #93, #132 ) ;
#37 = AXIS2_PLACEMENT_3D ( 'NONE', #105, #73, #167 ) ;
#38 = ORIENTED_EDGE ( 'NONE', *, *, #51, .T. ) ;
#39 = COORDINATED_UNIVERSAL_TIME_OFFSET ( 8, 0, .AHEAD. ) ;
#40 = LINE ( 'NONE', #41, #160 ) ;
#41 = CARTESIAN_POINT ( 'NONE',  ( 0.000000000000000000, 0.000000000000000000, 12.69999999999999929 ) ) ;
#42 = DIRECTION ( 'NONE',  ( -1.000000000000000000, -0.000000000000000000, -0.000000000000000000 ) ) ;
#43 = CARTESIAN_POINT ( 'NONE',  ( 0.000000000000000000, 0.000000000000000000, 0.000000000000000000 ) ) ;
#44 = CARTESIAN_POINT ( 'NONE',  ( 0.000000000000000000, 0.000000000000000000, 0.000000000000000000 ) ) ;
#45 = CALENDAR_DATE ( 2020, 22, 12 ) ;
#46 = DATE_AND_TIME ( #138, #168 ) ;
#47 = CYLINDRICAL_SURFACE ( 'NONE', #19, 12.69999999999999929 ) ;
#48 = EDGE_LOOP ( 'NONE', ( #142, #13, #113, #119 ) ) ;
#49 = CARTESIAN_POINT ( 'NONE',  ( -1.187907395172932594E-15, 0.000000000000000000, 12.69999999999999929 ) ) ;
#50 = DATE_AND_TIME ( #171, #15 ) ;
#51 = EDGE_CURVE ( 'NONE', #11, #9, #40, .T. ) ;
#52 = EDGE_LOOP ( 'NONE', ( #91, #23, #38, #125 ) ) ;
#53 = CC_DESIGN_DATE_AND_TIME_ASSIGNMENT ( #102, #137, ( #33 ) ) ;
#54 = CARTESIAN_POINT ( 'NONE',  ( 0.000000000000000000, 1.555301434917138433E-15, -12.69999999999999929 ) ) ;
#55 = APPROVAL_PERSON_ORGANIZATION ( #164, #83, #62 ) ;
#56 = APPLICATION_CONTEXT ( 'configuration controlled 3d designs of mechanical parts and assemblies' ) ;
#57 = DIRECTION ( 'NONE',  ( 0.000000000000000000, 0.000000000000000000, -1.000000000000000000 ) ) ;
#58 = DIRECTION ( 'NONE',  ( -0.000000000000000000, 0.000000000000000000, 1.000000000000000000 ) ) ;
#59 = CC_DESIGN_DATE_AND_TIME_ASSIGNMENT ( #50, #156, ( #72 ) ) ;
#60 = CC_DESIGN_PERSON_AND_ORGANIZATION_ASSIGNMENT ( #32, #3, ( #116 ) ) ;
#61 = CC_DESIGN_PERSON_AND_ORGANIZATION_ASSIGNMENT ( #71, #25, ( #72 ) ) ;
#62 = APPROVAL_ROLE ( '' ) ;
#63 = ADVANCED_BREP_SHAPE_REPRESENTATION ( 'BK7-LPDBSP-25.4-638', ( #99, #8 ), #136 ) ;
#64 = APPROVAL_STATUS ( 'not_yet_approved' ) ;
#65 = LOCAL_TIME ( 10, 19, 5.000000000000000000, #10 ) ;
#66 = SECURITY_CLASSIFICATION_LEVEL ( 'unclassified' ) ;
#67 = APPROVAL_DATE_TIME ( #92, #88 ) ;
#68 = EDGE_CURVE ( 'NONE', #11, #143, #95, .T. ) ;
#69 = APPLICATION_CONTEXT ( 'configuration controlled 3d designs of mechanical parts and assemblies' ) ;
#70 = APPROVAL ( #18, 'UNSPECIFIED' ) ;
#71 = PERSON_AND_ORGANIZATION ( #93, #132 ) ;
#72 = SECURITY_CLASSIFICATION ( '', '', #66 ) ;
#73 = DIRECTION ( 'NONE',  ( -1.000000000000000000, -0.000000000000000000, -0.000000000000000000 ) ) ;
#74 = DIRECTION ( 'NONE',  ( 0.000000000000000000, 0.000000000000000000, 1.000000000000000000 ) ) ;
#75 =( LENGTH_UNIT ( ) NAMED_UNIT ( * ) SI_UNIT ( .MILLI., .METRE. ) );
#76 = VECTOR ( 'NONE', #155, 1000.000000000000000 ) ;
#77 = CARTESIAN_POINT ( 'NONE',  ( -5.939536975864662969E-16, 12.69999999999999929, 0.000000000000000000 ) ) ;
#78 = COORDINATED_UNIVERSAL_TIME_OFFSET ( 8, 0, .AHEAD. ) ;
#79 = ADVANCED_FACE ( 'NONE', ( #148 ), #146, .F. ) ;
#80 = CALENDAR_DATE ( 2020, 22, 12 ) ;
#81 = PRODUCT_DEFINITION_FORMATION_WITH_SPECIFIED_SOURCE ( 'ANY', '', #116, .NOT_KNOWN. ) ;
#82 = CARTESIAN_POINT ( 'NONE',  ( 3.499999999999998224, 0.000000000000000000, 12.69999999999999929 ) ) ;
#83 = APPROVAL ( #64, 'UNSPECIFIED' ) ;
#84 =( NAMED_UNIT ( * ) SI_UNIT ( $, .STERADIAN. ) SOLID_ANGLE_UNIT ( ) );
#85 = DIRECTION ( 'NONE',  ( 0.000000000000000000, 0.000000000000000000, 1.000000000000000000 ) ) ;
#86 = AXIS2_PLACEMENT_3D ( 'NONE', #30, #31, #108 ) ;
#87 = PERSON_AND_ORGANIZATION_ROLE ( 'design_supplier' ) ;
#88 = APPROVAL ( #104, 'UNSPECIFIED' ) ;
#89 = CC_DESIGN_APPROVAL ( #83, ( #33 ) ) ;
#90 = CC_DESIGN_PERSON_AND_ORGANIZATION_ASSIGNMENT ( #2, #87, ( #81 ) ) ;
#91 = ORIENTED_EDGE ( 'NONE', *, *, #26, .F. ) ;
#92 = DATE_AND_TIME ( #127, #65 ) ;
#93 = PERSON ( 'UNSPECIFIED', 'UNSPECIFIED', 'UNSPECIFIED', ('UNSPECIFIED'), ('UNSPECIFIED'), ('UNSPECIFIED') ) ;
#94 = CC_DESIGN_PERSON_AND_ORGANIZATION_ASSIGNMENT ( #121, #162, ( #81 ) ) ;
#95 = CIRCLE ( 'NONE', #16, 12.69999999999999929 ) ;
#96 = DIRECTION ( 'NONE',  ( 1.000000000000000000, 0.000000000000000000, 0.000000000000000000 ) ) ;
#97 = CIRCLE ( 'NONE', #37, 12.69999999999999929 ) ;
#98 = DIRECTION ( 'NONE',  ( -1.000000000000000000, 0.000000000000000000, -0.000000000000000000 ) ) ;
#99 = MANIFOLD_SOLID_BREP ( 'Ðý×', #1 ) ;
#100 = CC_DESIGN_SECURITY_CLASSIFICATION ( #72, ( #81 ) ) ;
#101 = PERSON_AND_ORGANIZATION ( #93, #132 ) ;
#102 = DATE_AND_TIME ( #45, #151 ) ;
#103 = ORIENTED_EDGE ( 'NONE', *, *, #20, .T. ) ;
#104 = APPROVAL_STATUS ( 'not_yet_approved' ) ;
#105 = CARTESIAN_POINT ( 'NONE',  ( -1.187907395172932594E-15, 0.000000000000000000, 0.000000000000000000 ) ) ;
#106 = DIRECTION ( 'NONE',  ( -1.000000000000000000, -0.000000000000000000, -0.000000000000000000 ) ) ;
#107 = AXIS2_PLACEMENT_3D ( 'NONE', #174, #98, #58 ) ;
#108 = DIRECTION ( 'NONE',  ( 0.000000000000000000, 0.000000000000000000, 1.000000000000000000 ) ) ;
#109 = CYLINDRICAL_SURFACE ( 'NONE', #129, 12.69999999999999929 ) ;
#110 = PERSON_AND_ORGANIZATION_ROLE ( 'creator' ) ;
#111 = COORDINATED_UNIVERSAL_TIME_OFFSET ( 8, 0, .AHEAD. ) ;
#112 = PERSON_AND_ORGANIZATION ( #93, #132 ) ;
#113 = ORIENTED_EDGE ( 'NONE', *, *, #20, .F. ) ;
#114 = CARTESIAN_POINT ( 'NONE',  ( 0.000000000000000000, 0.000000000000000000, 0.000000000000000000 ) ) ;
#115 = CC_DESIGN_APPROVAL ( #70, ( #81 ) ) ;
#116 = PRODUCT ( 'BK7-LPDBSP-25.4-638', 'BK7-LPDBSP-25.4-638', '', ( #120 ) ) ;
#117 = ORIENTED_EDGE ( 'NONE', *, *, #7, .T. ) ;
#118 = ADVANCED_FACE ( 'NONE', ( #150 ), #175, .F. ) ;
#119 = ORIENTED_EDGE ( 'NONE', *, *, #51, .F. ) ;
#120 = MECHANICAL_CONTEXT ( 'NONE', #56, 'mechanical' ) ;
#121 = PERSON_AND_ORGANIZATION ( #93, #132 ) ;
#122 = CIRCLE ( 'NONE', #86, 12.69999999999999929 ) ;
#123 = COORDINATED_UNIVERSAL_TIME_OFFSET ( 8, 0, .AHEAD. ) ;
#124 = APPROVAL_ROLE ( '' ) ;
#125 = ORIENTED_EDGE ( 'NONE', *, *, #7, .F. ) ;
#126 = DESIGN_CONTEXT ( 'detailed design', #69, 'design' ) ;
#127 = CALENDAR_DATE ( 2020, 22, 12 ) ;
#128 = EDGE_LOOP ( 'NONE', ( #103, #117 ) ) ;
#129 = AXIS2_PLACEMENT_3D ( 'NONE', #43, #42, #85 ) ;
#130 = ORIENTED_EDGE ( 'NONE', *, *, #68, .F. ) ;
#131 = DIRECTION ( 'NONE',  ( 0.000000000000000000, 0.000000000000000000, 1.000000000000000000 ) ) ;
#132 = ORGANIZATION ( 'UNSPECIFIED', 'UNSPECIFIED', '' ) ;
#133 = CARTESIAN_POINT ( 'NONE',  ( 3.499999999999998224, 0.000000000000000000, 0.000000000000000000 ) ) ;
#134 = PRODUCT_RELATED_PRODUCT_CATEGORY ( 'detail', '', ( #116 ) ) ;
#135 = FACE_OUTER_BOUND ( 'NONE', #52, .T. ) ;
#136 =( GEOMETRIC_REPRESENTATION_CONTEXT ( 3 ) GLOBAL_UNCERTAINTY_ASSIGNED_CONTEXT ( ( #34 ) ) GLOBAL_UNIT_ASSIGNED_CONTEXT ( ( #75, #159, #84 ) ) REPRESENTATION_CONTEXT ( 'NONE', 'WORKASPACE' ) );
#137 = DATE_TIME_ROLE ( 'creation_date' ) ;
#138 = CALENDAR_DATE ( 2020, 22, 12 ) ;
#139 = ADVANCED_FACE ( 'NONE', ( #135 ), #109, .T. ) ;
#140 = DIRECTION ( 'NONE',  ( 0.000000000000000000, 0.000000000000000000, 1.000000000000000000 ) ) ;
#141 = SHAPE_DEFINITION_REPRESENTATION ( #147, #63 ) ;
#142 = ORIENTED_EDGE ( 'NONE', *, *, #68, .T. ) ;
#143 = VERTEX_POINT ( 'NONE', #27 ) ;
#144 = DIRECTION ( 'NONE',  ( -1.000000000000000000, -0.000000000000000000, -0.000000000000000000 ) ) ;
#145 = VERTEX_POINT ( 'NONE', #14 ) ;
#146 = PLANE ( 'NONE',  #158 ) ;
#147 = PRODUCT_DEFINITION_SHAPE ( 'NONE', 'NONE',  #33 ) ;
#148 = FACE_OUTER_BOUND ( 'NONE', #128, .T. ) ;
#149 = DIRECTION ( 'NONE',  ( 1.000000000000000000, 0.000000000000000000, 0.000000000000000000 ) ) ;
#150 = FACE_OUTER_BOUND ( 'NONE', #157, .T. ) ;
#151 = LOCAL_TIME ( 10, 19, 5.000000000000000000, #123 ) ;
#152 = DATE_AND_TIME ( #80, #173 ) ;
#153 = APPROVAL_DATE_TIME ( #46, #83 ) ;
#154 = ORIENTED_EDGE ( 'NONE', *, *, #170, .F. ) ;
#155 = DIRECTION ( 'NONE',  ( -1.000000000000000000, -0.000000000000000000, -0.000000000000000000 ) ) ;
#156 = DATE_TIME_ROLE ( 'classification_date' ) ;
#157 = EDGE_LOOP ( 'NONE', ( #130, #154 ) ) ;
#158 = AXIS2_PLACEMENT_3D ( 'NONE', #77, #149, #57 ) ;
#159 =( NAMED_UNIT ( * ) PLANE_ANGLE_UNIT ( ) SI_UNIT ( $, .RADIAN. ) );
#160 = VECTOR ( 'NONE', #144, 1000.000000000000000 ) ;
#161 = DIRECTION ( 'NONE',  ( -1.000000000000000000, -0.000000000000000000, -0.000000000000000000 ) ) ;
#162 = PERSON_AND_ORGANIZATION_ROLE ( 'creator' ) ;
#163 = APPROVAL_PERSON_ORGANIZATION ( #36, #70, #17 ) ;
#164 = PERSON_AND_ORGANIZATION ( #93, #132 ) ;
#165 = CIRCLE ( 'NONE', #24, 12.69999999999999929 ) ;
#166 = FACE_OUTER_BOUND ( 'NONE', #48, .T. ) ;
#167 = DIRECTION ( 'NONE',  ( 0.000000000000000000, 0.000000000000000000, 1.000000000000000000 ) ) ;
#168 = LOCAL_TIME ( 10, 19, 5.000000000000000000, #111 ) ;
#169 = CARTESIAN_POINT ( 'NONE',  ( -1.187907395172932594E-15, 0.000000000000000000, 0.000000000000000000 ) ) ;
#170 = EDGE_CURVE ( 'NONE', #143, #11, #122, .T. ) ;
#171 = CALENDAR_DATE ( 2020, 22, 12 ) ;
#172 = LINE ( 'NONE', #54, #76 ) ;
#173 = LOCAL_TIME ( 10, 19, 5.000000000000000000, #78 ) ;
#174 = CARTESIAN_POINT ( 'NONE',  ( 3.499999999999999112, 12.69999999999999929, 0.000000000000000000 ) ) ;
#175 = PLANE ( 'NONE',  #107 ) ;
ENDSEC;
END-ISO-10303-21;
